MacMusic.org  |  PcMusic.org  |  440Software  |  440Forums.com  |  440Tv  |  Zicos.com  |  AudioLexic.org
Loading... visitors connected
 
Reply to this topicStart new topic
> Riff Guitare Back In The Ussr, z'y arrive pas!
bilsom
post Thu 18 Aug 2005, 15:41
Post #1


Newbie


Group: Members
Posts: 2
Joined: 07-Oct 03
From: Paris - FR
Member No.: 26,252




Bonjour à tous,
J'ai un souci: je suis pas d'accord avec les tab du riff de guitare de Back in the USSR (celui du refrain) que je trouve sur le web. A savoir ça:

riff:
|--------------------------------------------
|--------------------------------------------
|---------------------------7--5-------------
|--------------7--5---------------8--5-------
|-7--5---------------8--5--------------------
|-------8--5---------------------------------

Qu'en dites-vous? Débouchage d'oreilles urgent, abandon de la musique immédiat, ou bien?
D'avance merci.
Bilsom
Go to the top of the page
 
+Quote Post
marionTDS
post Fri 19 Aug 2005, 17:35
Post #2


Newbie


Group: Members
Posts: 1
Joined: 05-Jan 05
From: FR
Member No.: 57,876




Salut!! Bon je suis pas sure que ce soit ce que tu recherches mais essaie ça:


|------------------------------------------
|------------------------------------------
|------------------------------------------
|----7--5-----4---------------------------
|------------------3-4--3-4---------------
|-5----------------------------------------


|-----------------------------------------
|-----------------------------------------
|-----5---3------------------------------
|-----------------7-----------------------
|-3--------------------6-7--6-7---------
|-----------------------------------------

avec un hammer sur les 3 4 3 4 et 6 7 6 7.

En esperant que cela t'aies aidé...
Go to the top of the page
 
+Quote Post
bilsom
post Fri 19 Aug 2005, 18:28
Post #3


Newbie


Group: Members
Posts: 2
Joined: 07-Oct 03
From: Paris - FR
Member No.: 26,252




Ah ben, ça va beaucoup mieux comme ça! Merci beaucoup.
Go to the top of the page
 
+Quote Post
etuifraicheur
post Fri 2 Sep 2005, 15:03
Post #4


Maniac Member
******

Group: Members
Posts: 761
Joined: 21-Dec 01
From: Paris
Member No.: 2,751




ça se lit comment, ces trucs? svp

pasqu'àmon avis c'est pas tout à fait juste

entre autres sur le 2ème accord ptite ruse le riff est décalé d'un ton (2 cases) plus haut, anticipant le 3ème, puis décalage idem sur le 3ème

donc cases 7-5 au lieu de 5-3, et 9-7 sur la même corde pour le 3ème accord (non mentionné sur ta blablature)

mais c'est un peu noyé au fond du piano tout ça unsure.gif


--------------------
étuifraîcheur

mollo avec ce laser svp
Go to the top of the page
 
+Quote Post

Reply to this topicStart new topic
1 User(s) are reading this topic (1 Guests and 0 Anonymous Users)
0 Members:

 

Lo-Fi Version - Sat 21 Oct 2017, 15:02
- © 440 Forums 2011